いーさいおん! ギター、アニメ、自作PC、政治、車
全記事一覧
管理ページ

2009年01月25日 22時49分39秒 更新

Deep Purple/BLACK NIGHT



お馴染みボスブラックのCM曲。リッチーブラックモア。

ボスブラックのCM曲。
「なんか曲弾いてよ」と言われたときに役立ちますw。

イントロ
E|---------------------------------|
B|---------------------------------|
G|-999999777777--------------------|
D|-------------------99999955555---|
A|---------------------------------|
E|---------------------------------|

リフ
(余裕のある人は5-7前に5-5を入れる)
E|----------------------------|
B|----------------------------|
G|---------------------------|
D|--------5------------------|
A|-(5)7------7--5------5------|
E|-------------------7-------|

E|---------------------------|
B|---------------------------|
G|---------------------------|
D|--------5------7--5--------|
A|-(5)7------7--------7-------|
E|---------------------------|

E|--------|---------|
B|--------|---------|
G|--------|---------|
D|--------|--5------|
A|-5--7---|------7--|
E|--------|---------|

Aメロ
E|---------------------------|----
B|---------------------------|----
G|---------------------------|-----
D|--------9-9-9-9-9-9--------|-----
A|-5--7--7-7-7-7-7--7--------|-----
E|---------------------------|-----
これを1小節として繰り返し。その後は適当に誤魔化しますw。

2009年01月25日 22時49分39秒 in FavoriteSong
トラックバック (-) コメント (0)

コメント一覧

コメントを投稿する


 管理者だけに表示  (非公開コメント投稿可能)

  BLOGTOP  
プロフィール

ゲノム28号

Author:ゲノム28号
E-SION
日々の戯れ言

検索フォーム

注目RSS

Powered by RSSリスティング
Powered by RSSリスティング
Powered by RSSリスティング
Powered by RSSリスティング

購読

月別アーカイブ

リンク

Shopping

別窓で開きます
Amazon.co.jp
ヨドバシ
LOHACO
コメリ
ケーズ
カインズ
ニトリ
Joshin
楽天
Yahoo!
ヤフオク
駿河屋

ネタ

Webコミック・ラノベ

動画

新作

Information

ギター

自作PC

WebRadio Link

音泉
Lantis
BeatNet
メディファク
とろめらねっと
すまいるFM
ヘルシーメルシー
studio Teaparty
STP出張版
ストーンヘッズ
きゅあラジ
Happy light Cafe

最近のコメント

カテゴリー

最近の記事

RSSフィード

メールフォーム

メールフォーム


   
copyright (c) いーさいおん! all rights reserved.
Template by JDB