いーさいおん! ギター、アニメ、自作PC、政治、車
全記事一覧
管理ページ

2012年12月18日 22時46分09秒 更新

ダウンタウンブギウギバンド/港のヨーコ・ヨコハマ・ヨコスカ



このリズムも、「アンタ あの娘の何なのさ」も何度も耳にしましたが、
曲名を知りませんでした。

先日、ギター物語の再放送を見て気づきました。
宇崎竜童だったのね・・・。

結局ヨーコはどうなったの?なぜヨーコを探しているの?

1年前までキャバクラのような飲み屋で働いていた髪の長い女
最初に尋ねた人物は知っているのに隠していた

別の店で半年前まで働いていた
マリの客をとった責任をとって辞めた

別の店で三ヶ月前まで働いていた
横浜から来た
社交ダンスが上手い
子猫を拾った晩に辞めた

連れてきた子猫と話していた
(子猫は比喩ではなさそう)
「前借り残したまんま」とはどういう意味?
前借りを頂戴して消えたのか、
前借りを貰わずに消えなくてはならない事情ができた?
「一月経ったらおさらばさ」とあるから、話の流れから2ヶ月前か1ヶ月前の話。

たった今まで座っていたが、客に触られて店を出て行った。

・・・で、この後ヨーコと出会えたの~!?


4-------5------------------------------
5---5-7-5-7-x-7-x-7--------------------
6---5-7---7-x-7-x-7--------------------

ブリッジミュートで7回弾いたら、

4--------------------------------------
5---7---7---5--------------------------
6---7---7---5--------------------------

また繰り返して、

4---7-5---------------------------------
5-------7--5----------------------------
6-------------8--5----------------------

アンタ あの娘の何なのさ

2012年12月18日 22時46分09秒 in FavoriteSong
トラックバック (-) コメント (0)

コメント一覧

コメントを投稿する


 管理者だけに表示  (非公開コメント投稿可能)

  BLOGTOP  
プロフィール

ゲノム28号

Author:ゲノム28号
E-SION
日々の戯れ言

検索フォーム

注目RSS

RSS表示パーツ
RSS表示パーツ
RSS Feed Widget
RSS Feed Widget

購読

月別アーカイブ

リンク

Shopping

別窓で開きます
Amazon.co.jp
ヨドバシ
LOHACO
コメリ
ケーズ
カインズ
ニトリ
Joshin
楽天
Yahoo!
ヤフオク

ネタ

Webコミック・ラノベ

動画

新作

Information

ギター

自作PC

WebRadio Link

音泉
Lantis
BeatNet
メディファク
とろめらねっと
すまいるFM
ヘルシーメルシー
studio Teaparty
STP出張版
ストーンヘッズ
きゅあラジ
Happy light Cafe

最近のコメント

カテゴリー

最近の記事

RSSフィード

メールフォーム

メールフォーム


    
copyright (c) いーさいおん! all rights reserved.
Template by JDB